ZAC EFRON feat ZENDAYA – Rewrite The Stars Guitar Tabs | Collections best music of time

by jack ck

ZAC EFRON feat ZENDAYA – Rewrite The Stars Guitar Tabs | Collections best music of time

This song is from the album The Greatest Showman(2017), released on 08 December 2017. The vocals are by Zac Efron , Zendaya, the music is produced by Justin Paul , Benj Pasek, and the lyrics are written by Greg Wells, Joseph Trapanese.
This song is originally in the key of Bb Major. You can change it to any key you want, using the Transpose option. The average tempo is 125 BPM. These chords are simple and easy to play on the guitar, ukulele or piano.

Click here for the chords and lyrics version

 
Original Key: Bb Major
Time Signature: 4/4
Tempo: 125
Suggested Strumming: DU,DU,DU,DU
c h o r d  z o n e . o r g

 
Legend
L - tied note
x - dead note
h - hammer on/pull off
b - bend
s - slide
~ - vibrato
g - ghost note
> - accentuated note
t - trill
M - palm mute
. - staccato
P - popping (bass)
S - slapping (bass)
+ - tapping
W - wide vibrato
< - fade in
w - whammy bar
= - tremolo picking
v - brush up
^ - brush down
V - pick stroke up
n - pick stroke down


E |-------|----------------------------|-------|----------------------------|
B |-------|--------------1--3L-3L------|--3----|--------------1--3--1-------|
G |-------|-----3--3--3----------------|-------|-----3--3--3-----------3L---|
D |-------|----------------------------|-------|----------------------------|
A |-------|----------------------------|-------|----------------------------|
E |-------|----------------------------|-------|----------------------------|


----------------------------|----------------------------|-------|
----------------------------|--------------1--3L-3L------|--3----|
--3-------------------------|-----3--3--3----------------|-------|
--------0--1L-1-------------|----------------------------|-------|
----------------------------|----------------------------|-------|
----------------------------|----------------------------|-------|


----------------------------|----------------------------|
--------------1--3--1-------|----------------------------|
-----3--3--3-----------3L---|--3-------------------------|
----------------------------|--------0--1L-1-------------|
----------------------------|----------------------------|
----------------------------|----------------------------|


www.chordzone.org
 
----------------------------|----------------------------|
-----1--1--1--1-------------|--------------1--3--1-------|
-----------------3--2--3L---|--3--3--3--3-----------3L---|
----------------------------|----------------------------|
----------------------------|----------------------------|
----------------------------|----------------------------|


----------------------------|----------------------------|
----------------------------|-----------------1L-1-------|
--3--------3L-3--------3L---|--3--0L-0--3L-3--------2L---|
--------1-------------------|----------------------------|
----------------------------|----------------------------|
----------------------------|----------------------------|


----------------------------|----------------------------|
--------------4--3--1-------|--------------1--3--1-------|
--2-----3--3-----------3L---|--3-----3--3-----------3L---|
----------------------------|----------------------------|
----------------------------|----------------------------|
----------------------------|----------------------------|


----------------------------|----------------------------|----------------|
----------------------------|-----------------1L-1--3L---|--3-------------|
--3-----0--3L-3-----0--3L---|--3--0L-0--3L-3-------------|----------------|
----------------------------|----------------------------|----------------|
----------------------------|----------------------------|----------------|
----------------------------|----------------------------|----------------|


----------------------------|--6--------5L-5-------------|
-----------------1----------|--------------------3--4L---|
--------------3-----3-------|----------------------------|
----------------------------|----------------------------|
----------------------------|----------------------------|
----------------------------|----------------------------|


-----------------------1L---|--1-------------------------|
--4--------------1----------|-----------4L-4-----3--1L---|
--------------3-----3-------|----------------------------|
----------------------------|----------------------------|
----------------------------|----------------------------|
----------------------------|----------------------------|


----------------------------|--6--------5L-5-------------|
--1--------------1----------|--------------------3--4L---|
--------------3-----3-------|----------------------------|
----------------------------|----------------------------|
----------------------------|----------------------------|
----------------------------|----------------------------|


-----------------------1L---|--1--------1L-1L-1----------|
--4--------------1----------|-----------------------1L---|
--------------3-----3-------|-----3--3-----------3-------|
----------------------------|----------------------------|
----------------------------|----------------------------|
----------------------------|----------------------------|


----------------------------|----------------------------|
--1--------------1--3--3L---|--3--------------1--3--3L---|
--------------3-------------|--------------3-------------|
----------------------------|----------------------------|
----------------------------|----------------------------|
----------------------------|----------------------------|


-----------------------3L---|--3--1L-1--1L-1-------------|
--3--------------1----------|-----------------4--3--1L---|
--------------3-----3-------|----------------------------|
----------------------------|----------------------------|
----------------------------|----------------------------|
----------------------------|----------------------------|


----------------------------|--6--------5L-5-------------|
--1--------------1----------|--------------------3--4L---|
--------------3-----3-------|----------------------------|
----------------------------|----------------------------|
----------------------------|----------------------------|
----------------------------|----------------------------|


-----------------------1L---|--1-------------------------|
--4--------------1----------|-----------4L-4-----3--1L---|
--------------3-----3-------|----------------------------|
----------------------------|----------------------------|
----------------------------|----------------------------|
----------------------------|----------------------------|


----------------------------|----------|----------------------------|-------|
--1-------------------------|----------|--------------1--3L-3L------|--3----|
--------------------2--3L---|--3-------|-----3--3--3----------------|-------|
----------------------------|----------|----------------------------|-------|
----------------------------|----------|----------------------------|-------|
----------------------------|----------|----------------------------|-------|


----------------------------|----------------------------|
--------------1--3--1-------|----------------------------|
-----3--3--3-----------3L---|--3-------------------------|
----------------------------|--------0--1L-1-------------|
----------------------------|----------------------------|
----------------------------|----------------------------|


----------------------------|-------|----------------------------|
--------------1--3L-3L------|--3----|--------------1--3--1-------|
-----3--3--3----------------|-------|-----3--3--3-----------3L---|
----------------------------|-------|----------------------------|
----------------------------|-------|----------------------------|
----------------------------|-------|----------------------------|


----------------------------|----------------------------|
----------------------------|-----1--1--1--1-------------|
--3-------------------------|-----------------3--2--3L---|
--------0--1L-1-------------|----------------------------|
----------------------------|----------------------------|
----------------------------|----------------------------|


----------------------------|----------------------------|
--------------1--3--1-------|----------------------------|
--3--3--3--3-----------3L---|--3--------3L-3--------3L---|
----------------------------|--------1-------------------|
----------------------------|----------------------------|
----------------------------|----------------------------|


www.chordzone.org
 
----------------------------|----------------------------|
-----------------1L-1-------|--------------4--3--1-------|
--3--0L-0--3L-3--------2L---|--2-----3--3-----------3L---|
----------------------------|----------------------------|
----------------------------|----------------------------|
----------------------------|----------------------------|


----------------------------|----------------------------|
--------------1--3--1-------|----------------------------|
--3-----3--3-----------3L---|--3-----0--3L-3-----0--3L---|
----------------------------|----------------------------|
----------------------------|----------------------------|
----------------------------|----------------------------|


----------------------------|----------------|----------------------------|
-----------------1L-1--3L---|--3-------------|-----------------1----------|
--3--0L-0--3L-3-------------|----------------|--------------3-----3-------|
----------------------------|----------------|----------------------------|
----------------------------|----------------|----------------------------|
----------------------------|----------------|----------------------------|


--6--------5L-5-------------|-----------------------1L---|
--------------------3--4L---|--4--------------1----------|
----------------------------|--------------3-----3-------|
----------------------------|----------------------------|
----------------------------|----------------------------|
----------------------------|----------------------------|


--1-------------------------|----------------------------|
-----------4L-4-----3--1L---|--1--------------1----------|
----------------------------|--------------3-----3-------|
----------------------------|----------------------------|
----------------------------|----------------------------|
----------------------------|----------------------------|


--6--------5L-5-------------|-----------------------1L---|
--------------------3--4L---|--4--------------1----------|
----------------------------|--------------3-----3-------|
----------------------------|----------------------------|
----------------------------|----------------------------|
----------------------------|----------------------------|


--1--------1L-1L-1----------|----------------------------|
-----------------------1L---|--1--------------1--3--3L---|
-----3--3-----------3-------|--------------3-------------|
----------------------------|----------------------------|
----------------------------|----------------------------|
----------------------------|----------------------------|


----------------------------|-----------------------3L---|
--3--------------1--3--3L---|--3--------------1----------|
--------------3-------------|--------------3-----3-------|
----------------------------|----------------------------|
----------------------------|----------------------------|
----------------------------|----------------------------|


--3--1L-1--1L-1-------------|----------------------------|
-----------------4--3--1L---|--1--------------1----------|
----------------------------|--------------3-----3-------|
----------------------------|----------------------------|
----------------------------|----------------------------|
----------------------------|----------------------------|


--6--------5L-5-------------|-----------------------1L---|
--------------------3--4L---|--4--------------1----------|
----------------------------|--------------3-----3-------|
----------------------------|----------------------------|
----------------------------|----------------------------|
----------------------------|----------------------------|


--1-------------------------|----------------------------|
-----------4L-4-----3--1L---|--1-------------------------|
----------------------------|--------------------2--3L---|
----------------------------|----------------------------|
----------------------------|----------------------------|
----------------------------|----------------------------|


----------------------------------------------------||
----------------------------------------------------||
--3L----------------3-------------------------------||
----------------------------------------------------||
----------------------------------------------------||
----------------------------------------------------||


Recommended for you:

To The Top Get The Guitar Tabs

See Also

See more great songs lyrics here: https://egyptchord.com/

wish you have a good time

0 comment

You may also like

Leave a Comment