THE SCORE – Born For This Guitar Tabs | 1000+ Collections best music of time

by jack ck

THE SCORE – Born For This Guitar Tabs | Collections best music of time

This song is from the album Pressure(2020), released on 31 July 2020. The vocals are by The Score . The music is produced by Eddie Anthony , Edan Dover, and the lyrics are written by The Score.
It is originally in the key of F Minor. You can change it to any key you want, using the Transpose option. The average tempo is 65 BPM. These chords are simple and easy to play on the guitar or piano.

Click here for the chords and lyrics version

 
Original Key: F Minor
Time Signature: 4/4
Tempo: 130
Suggested Strumming: DU,DU,DU,DU
c h o r d  z o n e . o r g
 
E |----------------|----------------------------------------------------|
B |----------------|----------------------------------------------------|
G |----------------|--4--2-----2--2--------2--2--2--2-----2--------2----|
D |--5--------2----|----------------------------------------------------|
A |----------------|----------------------------------------------------|
E |----------------|----------------------------------------------------|


----------------------------------------------------|
----------------------------------------------------|
--2--2--2-----2-----------0-------------------------|
--------------------2-----------------2-------------|
----------------------------------------------------|
----------------------------------------------------|


----------------------------------------------------|
----------------------------------------------------|
--4--2-----2--2--2-----2--2--2--2-----2--2-----2----|
----------------------------------------------------|
----------------------------------------------------|
----------------------------------------------------|


----------------------------------------------------|
--------------------------------------0-------------|
--2--2--2-----2-----------0--------------------2L---|
--------------------2-----------2-------------------|
----------------------------------------------------|
----------------------------------------------------|


----------------------------------------------------|
----------------------------------------------------|
--2-----------0-------------------------------------|
-----------------------2L-2-----------2--------2----|
----------------------------------------------------|
----------------------------------------------------|



 www.chordzone.org
----------------------------------------------------|
----------------------------------------------------|
--------------------------------------4--------2L---|
--5-----------2--------2L-2--------2----------------|
----------------------------------------------------|
----------------------------------------------------|


----------------------------------------------------|
----------------------------------------------------|
--2-----------0-------------------------------------|
-----------------------2L-2-----------2--------2----|
----------------------------------------------------|
----------------------------------------------------|


----------------------------------------------------|
----------------------------------------------------|
--0-------------------------------------------------|
--------------2--------2L-2-------------------------|
----------------------------------------------------|
----------------------------------------------------|


----------------------------|
----------------------------|
----------------------------|
--0--0--2-----0--0--2-------|
----------------------------|
----------------------------|


----------------------------------------------------|
----------------------------------------------------|
----------------------------------------------------|
--0-----2-----2-----0-----2-------------------------|
--------------------------------------3-------------|
----------------------------------------------------|


----------------------------|
----------------------------|
----------------------------|
--0--0--2-----0--0--2-------|
----------------------------|
----------------------------|


----------------------------------------------------|
----------------------------------------------------|
--0-----------0-----------0-----------2L------------|
-----------2--------2-------------------------------|
----------------------------------------------------|
----------------------------------------------------|
 www.chordzone.org

----------------------------------------------------|
----------------------------------------------------|
--2--------4--2-----0-----2-----0-----2L------------|
----------------------------------------------------|
----------------------------------------------------|
----------------------------------------------------|


----------------------------------------------------|
----------------------------------------------------|
--2--------4--2-----0-----2-----0-----2L------------|
----------------------------------------------------|
----------------------------------------------------|
----------------------------------------------------|


----------------------------------------------------|
----------------------------------------------------|
--2--------4--2-----0-----2-----0-----2-----0-------|
----------------------------------------------------|
----------------------------------------------------|
----------------------------------------------------|


----------------------------------------------------|
-----------0----------------------------------------|
--------------2-----0-----2-----0-----2L------------|
----------------------------------------------------|
----------------------------------------------------|
----------------------------------------------------|


----------------------------|----------------------------|
----------------------------|----------------------------|
--2-----2--2--------2--2----|--------2--2--------2--2----|
-----2-----------2----------|-----2-----------2----------|
----------------------------|----------------------------|
----------------------------|----------------------------|


----------------------------------------------------|
----------------------------------------------------|
--2-----------0-----------------------------2-------|
-----------------------2L-2-------------------------|
----------------------------------------------------|
----------------------------------------------------|


----------------------------------------------------|
----------------------------------------------------|
--2-----------0-------------------------------------|
-----------------------2L-2-------------------------|
----------------------------------------------------|
----------------------------------------------------|


----------------------------------------------------|
-----------0----------------------------------------|
--------------2-----0-----2--------0--2L------------|
----------------------------------------------------|
----------------------------------------------------|
----------------------------------------------------|


----------------------------------------------------|
----------------------------------------------------|
--2--------4--2-----0-----2-----0-----2L------------|
----------------------------------------------------|
----------------------------------------------------|
----------------------------------------------------|


----------------------------------------------------|
----------------------------------------------------|
--2--------4--2-----0-----2-----0-----2--------0L---|
----------------------------------------------------|
----------------------------------------------------|
----------------------------------------------------|


----------------------------------------------------|
-----------0----------------------------------------|
--0-----------2-----0-----2-----0-----2L------------|
----------------------------------------------------|
----------------------------------------------------|
----------------------------------------------------|


----------------------------------------------------|
----------------------------------------------------|
--2-----------2--------2--------------2--------2L---|
--------2-----------------------2-------------------|
----------------------------------------------------|
----------------------------------------------------|


----------------------------------------------------|
----------------------------------------------------|
--2-----------2--------2--------------2--------2L---|
--------2-----------------------2-------------------|
----------------------------------------------------|
----------------------------------------------------|


----------------------------------------------------|
----------------------------------------------------|
--2--2--------0-----------------------------2-------|
-----------------------2L-2-------------------------|
----------------------------------------------------|
----------------------------------------------------|


----------------------------------------------------|
----------------------------------------------------|
--2-----------0-------------------------------------|
-----------------------2L-2L------------------------|
----------------------------------------------------|
----------------------------------------------------|


----------------------------------------------------||
----------------------------------------------------||
----------------------------------------------------||
--2-------------------------------------------------||
----------------------------------------------------||
----------------------------------------------------||


Recommended for you:

To The Top Get The Guitar Tabs

See Also

See more great songs lyrics here: view here

full song THE SCORE – Born For This Guitar Tabs

This song is from the album Pressure(2020), released on 31 July 2020. The vocals are by The Score . The music is produced by Eddie Anthony , Edan Dover, and the lyrics are written by The Score.
It is originally in the key of F Minor. You can change it to any key you want, using the Transpose option. The average tempo is 65 BPM. These chords are simple and easy to play on the guitar or piano.

Click here for the chords and lyrics version

 
Original Key: F Minor
Time Signature: 4/4
Tempo: 130
Suggested Strumming: DU,DU,DU,DU
c h o r d  z o n e . o r g
 
E |----------------|----------------------------------------------------|
B |----------------|----------------------------------------------------|
G |----------------|--4--2-----2--2--------2--2--2--2-----2--------2----|
D |--5--------2----|----------------------------------------------------|
A |----------------|----------------------------------------------------|
E |----------------|----------------------------------------------------|


----------------------------------------------------|
----------------------------------------------------|
--2--2--2-----2-----------0-------------------------|
--------------------2-----------------2-------------|
----------------------------------------------------|
----------------------------------------------------|


----------------------------------------------------|
----------------------------------------------------|
--4--2-----2--2--2-----2--2--2--2-----2--2-----2----|
----------------------------------------------------|
----------------------------------------------------|
----------------------------------------------------|


----------------------------------------------------|
--------------------------------------0-------------|
--2--2--2-----2-----------0--------------------2L---|
--------------------2-----------2-------------------|
----------------------------------------------------|
----------------------------------------------------|


----------------------------------------------------|
----------------------------------------------------|
--2-----------0-------------------------------------|
-----------------------2L-2-----------2--------2----|
----------------------------------------------------|
----------------------------------------------------|



 www.chordzone.org
----------------------------------------------------|
----------------------------------------------------|
--------------------------------------4--------2L---|
--5-----------2--------2L-2--------2----------------|
----------------------------------------------------|
----------------------------------------------------|


----------------------------------------------------|
----------------------------------------------------|
--2-----------0-------------------------------------|
-----------------------2L-2-----------2--------2----|
----------------------------------------------------|
----------------------------------------------------|


----------------------------------------------------|
----------------------------------------------------|
--0-------------------------------------------------|
--------------2--------2L-2-------------------------|
----------------------------------------------------|
----------------------------------------------------|


----------------------------|
----------------------------|
----------------------------|
--0--0--2-----0--0--2-------|
----------------------------|
----------------------------|


----------------------------------------------------|
----------------------------------------------------|
----------------------------------------------------|
--0-----2-----2-----0-----2-------------------------|
--------------------------------------3-------------|
----------------------------------------------------|


----------------------------|
----------------------------|
----------------------------|
--0--0--2-----0--0--2-------|
----------------------------|
----------------------------|


----------------------------------------------------|
----------------------------------------------------|
--0-----------0-----------0-----------2L------------|
-----------2--------2-------------------------------|
----------------------------------------------------|
----------------------------------------------------|
 www.chordzone.org

----------------------------------------------------|
----------------------------------------------------|
--2--------4--2-----0-----2-----0-----2L------------|
----------------------------------------------------|
----------------------------------------------------|
----------------------------------------------------|


----------------------------------------------------|
----------------------------------------------------|
--2--------4--2-----0-----2-----0-----2L------------|
----------------------------------------------------|
----------------------------------------------------|
----------------------------------------------------|


----------------------------------------------------|
----------------------------------------------------|
--2--------4--2-----0-----2-----0-----2-----0-------|
----------------------------------------------------|
----------------------------------------------------|
----------------------------------------------------|


----------------------------------------------------|
-----------0----------------------------------------|
--------------2-----0-----2-----0-----2L------------|
----------------------------------------------------|
----------------------------------------------------|
----------------------------------------------------|


----------------------------|----------------------------|
----------------------------|----------------------------|
--2-----2--2--------2--2----|--------2--2--------2--2----|
-----2-----------2----------|-----2-----------2----------|
----------------------------|----------------------------|
----------------------------|----------------------------|


----------------------------------------------------|
----------------------------------------------------|
--2-----------0-----------------------------2-------|
-----------------------2L-2-------------------------|
----------------------------------------------------|
----------------------------------------------------|


----------------------------------------------------|
----------------------------------------------------|
--2-----------0-------------------------------------|
-----------------------2L-2-------------------------|
----------------------------------------------------|
----------------------------------------------------|


----------------------------------------------------|
-----------0----------------------------------------|
--------------2-----0-----2--------0--2L------------|
----------------------------------------------------|
----------------------------------------------------|
----------------------------------------------------|


----------------------------------------------------|
----------------------------------------------------|
--2--------4--2-----0-----2-----0-----2L------------|
----------------------------------------------------|
----------------------------------------------------|
----------------------------------------------------|


----------------------------------------------------|
----------------------------------------------------|
--2--------4--2-----0-----2-----0-----2--------0L---|
----------------------------------------------------|
----------------------------------------------------|
----------------------------------------------------|


----------------------------------------------------|
-----------0----------------------------------------|
--0-----------2-----0-----2-----0-----2L------------|
----------------------------------------------------|
----------------------------------------------------|
----------------------------------------------------|


----------------------------------------------------|
----------------------------------------------------|
--2-----------2--------2--------------2--------2L---|
--------2-----------------------2-------------------|
----------------------------------------------------|
----------------------------------------------------|


----------------------------------------------------|
----------------------------------------------------|
--2-----------2--------2--------------2--------2L---|
--------2-----------------------2-------------------|
----------------------------------------------------|
----------------------------------------------------|


----------------------------------------------------|
----------------------------------------------------|
--2--2--------0-----------------------------2-------|
-----------------------2L-2-------------------------|
----------------------------------------------------|
----------------------------------------------------|


----------------------------------------------------|
----------------------------------------------------|
--2-----------0-------------------------------------|
-----------------------2L-2L------------------------|
----------------------------------------------------|
----------------------------------------------------|


----------------------------------------------------||
----------------------------------------------------||
----------------------------------------------------||
--2-------------------------------------------------||
----------------------------------------------------||
----------------------------------------------------||


Recommended for you:

To The Top Get The Guitar Tabs

See Also

wish you have a good time

0 comment

You may also like

Leave a Comment