ADELE – To Be Loved Guitar Tabs | Collections best music of time

by jack ck

ADELE – To Be Loved Guitar Tabs | Collections best music of time

This song is from the album 30, released on 19 November 2021. The vocals are by Adele, the music is produced by Adele , Tobias Jesso Jr., and the lyrics are written by Shawn Everett , Tobias Jesso Jr..
This song is originally in the key of Ab Major. You can change it to any key you want, using the Transpose option. The average tempo is 50 BPM. These chords are simple and easy to play on the guitar, ukulele or piano.

Click here for the chords and lyrics version

 
Original Key: Ab Major
Time Signature: 4/4
Tempo: 50
Suggested Strumming: DU,DU,DU,DU
c h o r d  z o n e . o r g

Legend
L - tied note
x - dead note
h - hammer on/pull off
b - bend
s - slide
~ - vibrato
g - ghost note
> - accentuated note
t - trill
M - palm mute
. - staccato
P - popping (bass)
S - slapping (bass)
+ - tapping
W - wide vibrato
< - fade in
w - whammy bar
= - tremolo picking
v - brush up
^ - brush down
V - pick stroke up
n - pick stroke down


E |-----------23---|--21-23-20-21-18-20-16-18---|--15-16-13-15-11-13-9--11---|
B |----------------|----------------------------|----------------------------|
G |----------------|----------------------------|----------------------------|
D |----------------|----------------------------|----------------------------|
A |----------------|----------------------------|----------------------------|
E |----------------|----------------------------|----------------------------|

www.chordzone.org
 

--8--------9L-9--------6L-6-------------------------|
----------------------------------------------------|
----------------------------------------------------|
----------------------------------------------------|
----------------------------------------------------|
----------------------------------------------------|


--11----------------11----8-----11L---11-------13L--|--13------|
----------------------------------------------------|----------|
----------------------------------------------------|----------|
----------------------------------------------------|----------|
----------------------------------------------------|----------|
----------------------------------------------------|----------|


--8-----11----13L---------13L------13L13L------13L--|
----------------------------------------------------|
-----------------------------------0L-0L-------0L---|
-----------------------------------1L-1L-------1L---|
-----------------------------------3L-3L-------3L---|
----------------------------------------------------|


--13-11L11-8L-8--6----------|----------------|-------|
--------------------9L------|--9-------------|-------|
--0L-0L-0L-0L-0L-0L-0L------|--0L-0----------|--0L---|
--1L-1L-1L-1L-1L-1L-1L------|--1L-1----------|--8L---|
--3L-3L-3L-3L-3L-3L-3L------|--3L-3----------|-------|
----------------------------|----------------|--11L--|


-----9-----9L-9--------9L-9--------9--------8-------|
----------------------------------------------------|
--0L-0L----0L-0L-------0L-0L-------0L-------0L------|
--8L-8L----8L-8L-------8L-8L-------8L-------8L------|
----------------------------------------------------|
--11L11L---11L11L------11L11L------11L------11L-----|


-----------------8L-8-----8-------------------------|
--11-9-----11-------11L11---------------------------|
--0L-0L----0L----0L-0L-0L-0-------------------------|
--8L-8L----8L----8L-8L-8L-8-------------------------|
----------------------------------------------------|
--11L11L---11L---11L11L11L11------------------------|


--------------------------8--8--8--------6L---------|
----------------------------------------------------|
----------------------------------------------------|
--6L----------------------6L-6L-6L----6L-6L---------|
--8L----------------------8L-8L-8L----8L-8L---------|
--8L----------------------8L-8L-8L----8L-8L---------|


--6--------------------6L-6L------------------------|
-----------9L-9-------------------------------------|
----------------------------------------------------|
--6L-------6L-6L-------6L-6-------------------------|
--8L-------8L-8L-------8L-8-------------------------|
--8L-------8L-8L-------8L-8-------------------------|


--6-----------------------9-----9--------8----------|
----------------------------------------------------|
----------------------------------------------------|
--6L----------6L----------6L----6L----6L-6L---------|
--8L----------8L----------8L----8L----8L-8L---------|
--9L----------9L----------9L----9L----9L-9L---------|


--6-----6--8L-8--------6L---|--6-------------------------|
----------------------------|-----9L-9-----9-------------|
----------------------------|----------------------------|
--6L----6L-6--6L-------6L---|--6L-6L-6L----6L------------|
--8L----8L-8--6L-------6L---|--6L-6L-6L----6L------------|
--9L----9L-9--8L-------8L---|--8L-8L-8L----8L------------|


--------------------9--9----|
----------------------------|
----------------------------|
--6--------8L-8L----8L-8L---|
--6--------8L-8L----8L-8L---|
--8--------9L-9L----9L-9L---|


-----8--------6-----------6-----8L----8L------------|
----------------------------------------------------|
----------------------------------------------------|
--8L-8L-------8L----------8L----8L----8L------------|
--8L-8L-------8L----------8L----8L----8L------------|
--9L-9L-------9L----------9L----9L----9L------------|


--8-----6--------------------6L-------6L------------|--6-------------|
-----------------9--------9-------------------------|----------------|
----------------------------------------------------|----------------|
--8L----8L-------8L-------8L-8L-------8L------------|--8L-8----------|
--8L----8L-------8L-------8L-8L-------8L------------|--8L-8----------|
--9L----9L-------9L-------9L-9L-------9L------------|--9L-9----------|


-----------------------------11----8-----11---------|
----------------------------------------------------|
--1L----------------------1L-1L----1L----1L---------|
--1L----------------------1L-1L----1L----1L---------|
--3L----------------------3L-3L----3L----3L---------|
----------------------------------------------------|


--11----------------11-8----|--11-13L13L---138L---6-------|----------|
----------------------------|----------------------------|--9-------|-
--1L----------1L----1L-1----|--------0L----0L-0L-0-------|--0L-0----|-
--1L----------1L----1L-1----|--------1L----1L-1L-1L------|--1L-1----|-
--3L----------3L----3L-3----|--------3L----3L-3L-3L------|--3L-3----|-
----------------------------|----------------------------|----------|-


-----------------------------9-----9L-9--------9L---|
---------------------------------------------------|-
----0L-------0L-0L-------0L-0L----0L-0L-------0L---|-
----8L-------8L-8L-------8L-8L----8L-8L-------8L---|-
---------------------------------------------------|-
----11L------11L11L------11L11L---11L11L------11L--|-


--9--------9--------8--------------------8L-8-------|
-------------------------11-9-----11-------11L11---|-
-0L-------0L-------0L----0L-0L----0L----0L-0L-0----|-
-8L-------8L-------8L----8L-8L----8L----8L-8L-8----|-
---------------------------------------------------|-
-11L------11L------11L---11L11L---11L---11L11L11L--|-


--8L----8L-8----------------|
---------------------------|-
---------------------------|-
----------6L-6L------------|-
----------8L-8L------------|-
-11-------8L-8L------------|-


--6-----8L----8-----6--------------6L-6L------------|
-------------------------9-------------------------|-
---------------------------------------------------|-
-6L----6L----6L----6L----6L-------6L-6L------------|-
-8L----8L----8L----8L----8L-------8L-8L------------|-
-8L----8L----8L----8L----8L-------8L-8L------------|-


--6L----------------------6L-------6----------------|
---------------------------------------------------|-
---------------------------------------------------|-
-6--------------------------------6L-6L------------|-
-8--------------------------------8L-8L------------|-
-8--------------------------------9L-9L------------|-


--------9-----9-----9L----9--------8--------6-------|
---------------------------------------------------|-
---------------------------------------------------|-
-6L----6L----6L----6L----6L-------6L-------6L------|-
-8L----8L----8L----8L----8L-------8L-------8L------|-
-9L----9L----9L----9L----9L-------9L-------9L------|-


--8-----------6-----------------------------6-------|--8L-8----------|
----------------------9L-9-----------9-------------|----------------|-
---------------------------------------------------|----------------|-
-6L----------6L-------6L-6L----------6L----6L------|--6--------6L---|-
-8L----------8L-------8L-8L----------8L----8-------|-----------6L---|-
-9L----------9L-------9L-9L----------9L----9L------|--9--------8L---|-


--------------9-----9-----9L----------9--8----------|
---------------------------------------------------|-
---------------------------------------------------|-
-6L----------6L----6L----6L----------6L-6----------|-
-6L----------6L----6L----6L----------6L-6----------|-
-8L----------8L----8L----8L----------8L-8----------|-


--6-----8L----8-----6-------------------------------|--6-------|
----------------------------9L-------9-----9-------|----------|-
-------------------0L----0L-0L-------0L----0L------|--0L-0L---|-
-------------------8L----8L-8L-------8L----8L------|--8L-8----|-
-------------------6L----6L-6L-------6L----6L------|--6L-6----|-
---------------------------------------------------|----------|-


-----------23---|--21-23-20-21-18-20-16-18---|--15-16-13-15-11-13-9--11---|
---------------|----------------------------|----------------------------|-
-0-------------|----------------------------|----------------------------|-
---------------|----------------------------|----------------------------|-
---------------|----------------------------|----------------------------|-
---------------|----------------------------|----------------------------|-


--8--------9L-9--------6L-6-------------------------|
---------------------------------------------------|-
---------------------------------------------------|-
---------------------------------------------------|-
---------------------------------------------------|-
---------------------------------------------------|-


--11----------------11----8-----11L---11-------13L--|--13------|
---------------------------------------------------|----------|-
---------------------------------------------------|----------|-
---------------------------------------------------|----------|-
---------------------------------------------------|----------|-
---------------------------------------------------|----------|-


--8-----11----13L---------13L------13L13L------13L--|
---------------------------------------------------|-
----------------------------------0L-0L-------0L---|-
----------------------------------1L-1L-------1L---|-
----------------------------------3L-3L-------3L---|-
---------------------------------------------------|-


--13-11L11-8L-8--6----------|----------------|-------|
-------------------9L------|--9-------------|-------|-
-0L-0L-0L-0L-0L-0L-0L------|--0L-0----------|--0L---|-
-1L-1L-1L-1L-1L-1L-1L------|--1L-1----------|--8L---|-
-3L-3L-3L-3L-3L-3L-3L------|--3L-3----------|-------|-
---------------------------|----------------|--11L--|-


-----9-----9L-9--------9L-9--------9--------8-------|
---------------------------------------------------|-
-0L-0L----0L-0L-------0L-0L-------0L-------0L------|-
-8L-8L----8L-8L-------8L-8L-------8L-------8L------|-
---------------------------------------------------|-
-11L11L---11L11L------11L11L------11L------11L-----|-


-----------------8L-8-----8-------------------------|
-11-9-----11-------11L11---------------------------|-
-0L-0L----0L----0L-0L-0L-0-------------------------|-
-8L-8L----8L----8L-8L-8L-8-------------------------|-
---------------------------------------------------|-
-11L11L---11L---11L11L11L11------------------------|-


--------------------------8--8--8--------6L---------|
---------------------------------------------------|-
---------------------------------------------------|-
-6L----------------------6L-6L-6L----6L-6L---------|-
-8L----------------------8L-8L-8L----8L-8L---------|-
-8L----------------------8L-8L-8L----8L-8L---------|-


--6--------------------6L-6L------------------------|
----------9L-9-------------------------------------|-
---------------------------------------------------|-
-6L-------6L-6L-------6L-6-------------------------|-
-8L-------8L-8L-------8L-8-------------------------|-
-8L-------8L-8L-------8L-8-------------------------|-


--6-----------------------9-----9--------8----------|
---------------------------------------------------|-
---------------------------------------------------|-
-6L----------6L----------6L----6L----6L-6L---------|-
-8L----------8L----------8L----8L----8L-8L---------|-
-9L----------9L----------9L----9L----9L-9L---------|-


--6-----6--8L-8--------6L---|--6-------------------------|
---------------------------|-----9L-9-----9-------------|-
---------------------------|----------------------------|-
-6L----6L-6--6L-------6L---|--6L-6L-6L----6L------------|-
-8L----8L-8--6L-------6L---|--6L-6L-6L----6L------------|-
-9L----9L-9--8L-------8L---|--8L-8L-8L----8L------------|-


--------------------9--9----|
---------------------------|-
---------------------------|-
-6--------8L-8L----8L-8L---|-
-6--------8L-8L----8L-8L---|-
-8--------9L-9L----9L-9L---|-


-----8--------6-----------6-----8L----8L------------|
---------------------------------------------------|-
---------------------------------------------------|-
-8L-8L-------8L----------8L----8L----8L------------|-
-8L-8L-------8L----------8L----8L----8L------------|-
-9L-9L-------9L----------9L----9L----9L------------|-


--8-----6--------------------6L-------6L------------|--6-------------|
----------------9--------9-------------------------|----------------|-
---------------------------------------------------|----------------|-
-8L----8L-------8L-------8L-8L-------8L------------|--8L-8----------|-
-8L----8L-------8L-------8L-8L-------8L------------|--8L-8----------|-
-9L----9L-------9L-------9L-9L-------9L------------|--9L-9----------|-


-----------------------------11----8-----11---------|
---------------------------------------------------|-
-1L----------------------1L-1L----1L----1L---------|-
-1L----------------------1L-1L----1L----1L---------|-
-3L----------------------3L-3L----3L----3L---------|-
---------------------------------------------------|-


--11----------------11-8----|--11-13L13L---138L---6-------|----------|
---------------------------|----------------------------|--9-------|--
-1L----------1L----1L-1----|--------0L----0L-0L-0-------|--0L-0----|--
-1L----------1L----1L-1----|--------1L----1L-1L-1L------|--1L-1----|--
-3L----------3L----3L-3----|--------3L----3L-3L-3L------|--3L-3----|--
---------------------------|----------------------------|----------|--


-----------------------------9-----9L-9--------9L---|
--------------------------------------------------|--
---0L-------0L-0L-------0L-0L----0L-0L-------0L---|--
---8L-------8L-8L-------8L-8L----8L-8L-------8L---|--
--------------------------------------------------|--
---11L------11L11L------11L11L---11L11L------11L--|--


--9--------9--------8--------------------8L-8-------|
------------------------11-9-----11-------11L11---|--
0L-------0L-------0L----0L-0L----0L----0L-0L-0----|--
8L-------8L-------8L----8L-8L----8L----8L-8L-8----|--
--------------------------------------------------|--
11L------11L------11L---11L11L---11L---11L11L11L--|--


--8L----8L-8----------------|
--------------------------|--
--------------------------|--
---------6L-6L------------|--
---------8L-8L------------|--
11-------8L-8L------------|--


--6-----8L----8-----6--------------6L-6L------------|
------------------------9-------------------------|--
--------------------------------------------------|--
6L----6L----6L----6L----6L-------6L-6L------------|--
8L----8L----8L----8L----8L-------8L-8L------------|--
8L----8L----8L----8L----8L-------8L-8L------------|--


--6L----------------------6L-------6----------------|
--------------------------------------------------|--
--------------------------------------------------|--
6--------------------------------6L-6L------------|--
8--------------------------------8L-8L------------|--
8--------------------------------9L-9L------------|--


--------9-----9-----9L----9--------8--------6-------|
--------------------------------------------------|--
--------------------------------------------------|--
6L----6L----6L----6L----6L-------6L-------6L------|--
8L----8L----8L----8L----8L-------8L-------8L------|--
9L----9L----9L----9L----9L-------9L-------9L------|--


--8-----------6-----------------------------6-------|--8L-8----------|
---------------------9L-9-----------9-------------|----------------|--
--------------------------------------------------|----------------|--
6L----------6L-------6L-6L----------6L----6L------|--6--------6L---|--
8L----------8L-------8L-8L----------8L----8-------|-----------6L---|--
9L----------9L-------9L-9L----------9L----9L------|--9--------8L---|--


--------------9-----9-----9L----------9--8----------|
--------------------------------------------------|--
--------------------------------------------------|--
6L----------6L----6L----6L----------6L-6----------|--
6L----------6L----6L----6L----------6L-6----------|--
8L----------8L----8L----8L----------8L-8----------|--


--6-----8L----8-----6-------------------------------|--6-------|
---------------------------9L-------9-----9-------|----------|--
------------------0L----0L-0L-------0L----0L------|--0L-0L---|--
------------------8L----8L-8L-------8L----8L------|--8L-8----|--
------------------6L----6L-6L-------6L----6L------|--6L-6----|--
--------------------------------------------------|----------|--


www.chordzone.org
 
----------------------------------------------------||
--------------------------------------------------||
0-------------------------------------------------||
--------------------------------------------------||
--------------------------------------------------||
--------------------------------------------------||


Recommended for you:

To The Top Get The Guitar Tabs

See Also

See more great songs lyrics here: view here

wish you have a good time

0 comment

You may also like

Leave a Comment